Dionysos - cielensauce.com : La mécanique du coeur, nouvel album de Dionysos en novembre 2007

site non officiel consacré au groupe de rock français Dionysos

Menu haut de page

Menu Principal

Monsters in Love

Giant Jack :

Paroles

Jack comes home

Giant Jack was dead
Giant Jack is maybe dead
Giant Jack looks dead
Giant Jack is not dead!

He’s carrying his shadow
Through the grave city grave
Skeleton tree growing
On his own grave
He’s trembling cold
With a frozen wind blowing
Blowing through his teeth
Blowing through his mouth
Battle on his big blinked eyes
Jack is on my back now...

I was trembling like a bird with no feather on the skin
I had gasoline all over my wings
He looked like a storm with a solid body
He looked like a storm...
He took off his shadow and put it on mine
I said :
« It’s too large for a little me »
He said : « You need this big black shadow
To fight against the night
It’s a good shadow A bit encumbering
And cold like ice...
But it will protect you well »
He said
He wore a strange coat with a hundred pockets full of books
He said : « I give you books cos’ books are really good to fight against the night »
Giant Jack shakes my hand
Giant Jack and little me…
Giant Jack is on my back!
Giant Jack is on my back!!

Tablatures
INTRO + COUPLET :

G -------------------------------------
D -------------------------------------
A ----------3-----3----------3-----3---
E --1-1-3-4---3-4----1-1-3-4---3-4-----

Giant Jack was dead
Giant Jack is maybe dead
Giant Jack looks dead
Giant Jack is not dead!

REFRAIN :

E ------------------------------------------
B ----------------------------4--------6----
G ------------------------------4--------6--
D --3-3-3-3-3---3-3-3-3-3---6-----6--8------  2 fois
A --3-3-3-3-3---3-3-3-3-3-------------------
E --1-1-1-1-1---1-1-1-1-1-------------------

E -----------------
B -----------------
G --------------5--
D --3-3-3-3-3---5--
A --3-3-3-3-3---3--
E --1-1-1-1-1------

He’s carrying his shadow
Through the grave city grave
Skeleton tree growing
On his own grave
He’s trembling cold
With a frozen wind blowing
Blowing through his teeth
Blowing through his mouth
Battle on his big blinked eyes
Jack is on my back now...

COUPLET :

G -------------------------------------
D -------------------------------------
A ----------3-----3----------3-----3---
E --1-1-3-4---3-4----1-1-3-4---3-4-----

I was trembling like a bird with no feather on the skin
I had gasoline all over my wings
He looked like a storm with a solid body
He looked like a storm...
He took off his shadow and put it on mine
I said :
« It’s too large for a little me »
He said : « You need this big black shadow
To fight against the night
It’s a good shadow A bit encumbering
And cold like ice...
But it will protect you well »
He said
He wore a strange coat with a hundred pockets full of books
He said : « I give you books cos’ books are really good to fight against the night »
Giant Jack shakes my hand
Giant Jack and little me…
Giant Jack is on my back!

E ------------------------------------------
B ----------------------------4--------6----
G ------------------------------4--------6--
D --3-3-3-3-3---3-3-3-3-3---6-----6--8------  2 fois
A --3-3-3-3-3---3-3-3-3-3-------------------
E --1-1-1-1-1---1-1-1-1-1-------------------

E -----------------
B -----------------
G --------------5--
D --3-3-3-3-3---5--
A --3-3-3-3-3---3--
E --1-1-1-1-1------

Giant Jack is on my back!!

FIN:

E --------------------------------------------------------------
B --------------------------------------------------------------
G --------------------------------------------------------------
D --3-3-3-3-3-3-3-------------6-6-6-6-6-6-6-6---8-8-8-8-8-8-8---
A --3-3-3-3-3-3-3-------------6-6-6-6-6-6-6-6---8-8-8-8-8-8-8---
E --1-1-1-1-1-1-1-------------4-4-4-4-4-4-4-4---6-6-6-6-6-6-6---
Giant Jack is on my back!!    Giant Jack is on my back!!

Menu bas de page