Dionysos - cielensauce.com : La mécanique du coeur, nouvel album de Dionysos en novembre 2007

site non officiel consacré au groupe de rock français Dionysos

Menu haut de page

Menu Principal

Happening Songs

Tablatures :

1. Wet

Bm - Em - Bm - Em

Bm  Em         Bm
My spaghetti hair
Em         Bm  Em        Bm  Em
pissing on my very long nose
Bm      Em         Bm
Like a shower of tears
   Em          Bm
a shower of beers
   Em          Bm
a shower of tears (fuck ' em all!)

Bm - Em - Bm - Em

Bm    Em          Bm
I was cooking my brain
Em        Bm     Em         Bm   Em
under the moon, inside the gloom
Bm     Em          Bm
and I saw all my dreams
  Em         Bm
I saw all my nightmares
Em              Bm
jumpin ' from my ear (fuck' em all!)

Bm - Em - Bm - Em


Ok midnight
you can spit all your fuckin' stars on me...
Bm          Em         Bm              Em       Bm       
I'll never be wet wet wet,  I'll never be wet wet wet

Bm - Em - Bm - Em

E---------------------------------------------
B--------------------------------------------
G--2------------0---------------------------4--
D---------------------------------4---------5--
A--3------------1-----------------0---------5--
E----------------------------------------------
    Loneliness seams to be colder,  When you're wet!


Bm - Em - Bm - Em


Fight about myself
I'm always fuck by me
13. Wet

Bm - Em - Bm - Em

Bm  Em         Bm
My spaghetti hair
Em         Bm  Em        Bm  Em
pissing on my very long nose
Bm      Em         Bm
Like a shower of tears
   Em          Bm
a shower of beers
   Em          Bm
a shower of tears (fuck ' em all!)

Bm - Em - Bm - Em

Bm    Em          Bm
I was cooking my brain
Em        Bm     Em         Bm   Em
under the moon, inside the gloom
Bm     Em          Bm
and I saw all my dreams
  Em         Bm
I saw all my nightmares
Em              Bm
jumpin ' from my ear (fuck' em all!)

Bm - Em - Bm - Em


Ok midnight
you can spit all your fuckin' stars on me...
Bm          Em         Bm              Em       Bm       
I'll never be wet wet wet,  I'll never be wet wet wet

Bm - Em - Bm - Em

E---------------------------------------------
B--------------------------------------------
G--2------------0---------------------------4--
D---------------------------------4---------5--
A--3------------1-----------------0---------5--
E----------------------------------------------
    Loneliness seams to be colder,  When you're wet!


Bm - Em - Bm - Em


Fight about myself
I'm always fuck by me

Menu bas de page